Sax on the Web Forum banner

1 - 4 of 4 Posts

·
Registered
Joined
·
1,393 Posts
If it's the one I'm thinking of I can tell you it's called The Eye of the Tiger and I think it was performed by Survivor if that helps at all - I imagine the chords at least can easily be found on the web. Good luck!
 

·
Registered
Joined
·
1,430 Posts
The theme to the first Rocky movie is "Gonna Fly Now" by Bill Conti.

Dm7(Gbass) Cmaj7 Fmaj7
Gonna fly now, flying high now.
Dm7 Bm7/5- Esus4
Gonna fly, fly, fly.
Dm7 Cmaj7
Rocky's ready to make a move, yeah
Dm7 Cmaj7
Rocky's ready, he just can't lose, yeah
Dm7 Em7 Fmaj7 Esus4
Every nerve a wire, sweatin' blood, like fire
Dm7 Cmaj7
Body's achin' from the hurt it's takin'
Dm7 Cmaj7
Muscles screamin' like a burnin' demon
Dm7 Em7 Fmaj7 Esus4
Every nerve a wire, sweatin' blood like fire
Dm7 Em7 Fmaj7 Bbmaj7
Tryin' hard now, it's so hard now,
Asus4 Dm7 Cmaj7
Tryin' hard now, Rocky power by the hour,
Dm7 Cmaj7
Pumpin' iron God, ya know he's tryin'
Dm7 Em7 Fmaj7 Esus4
Every nerve a wire, sweatin' blood like fire
Dm7(Gbass) Cmaj7 Fmaj7
Gonna fly now, flyin' high now.
Dm7 Bm7/5- Esus4
Gonna fly, fly, fly.
Dm7 Em7 Fmaj7 Bbmaj7
Feelin' strong now, won't be long now,
Asus4 Dm7 Cmaj7
Gettin' strong now, (Fists like thunder gonna put you under,)
Dm7 Cmaj7
Pumpin' iron God, ya know he's tryin'
Dm7 Em7 Fmaj7 Esus4
Every nerve a wire, sweatin' blood like fire
Dm7(Gbass) Cmaj7 Fmaj7
Gonna fly now, flyin' high now.
Dm7 Bm7/5- Esus4 Am
Gonna fly, fly, fly.
 

·
Registered
Joined
·
6 Posts
Discussion Starter #4
yes it gonna fly now i have the score but for guitar and dont know which note is
Main Theme:
|----------------------------------------------------------------|
|-----------------12---------------------------12----------------|
|----12--14----14-----------------12--14----14-------------------|
|-14-----------------14--------14-------------------14-----------|
|----------------------------------------------------------------|
|----------------------------------------------------------------|

|------------------------------------------------------|
|------------------------------------------------------|
|------------------9-9---------------------------------|
|-12-10-12---10-12--------10-10-9--9------------10--9--|
|------------------------------------12-12-10----------|
|------------------------------------------------------|

|----------------------------------------------------------------|
|-----------------12---------------------------12----------------|
|----12--14----14-----------------12--14----14-------------------|
|-14-----------------14--------14-------------------14-----------|
|----------------------------------------------------------------|
|----------------------------------------------------------------|

|-------------------------------------------------13--12-|
|-------------------------13-13-12--12-------------------|
|------------------9-9-----------------14-14-12----------|
|-12-10-12---10-12---------------------------------------|
|--------------------------------------------------------|
|--------------------------------------------------------|
 
1 - 4 of 4 Posts
Top